Amadeus- Nju ne zaboravljam

uvod: E,D5,E5

Em
Na mome stolu garnitura laznih noktiju
i vonderbra u boji koze ispod kreveta
Am                       Em
to je sve, sto ostalo je iza nje

Em
Na mome srcu ujed zmije, crna zavesa
                                        Am
a ti me druze pitas znam li koja adresa njena je,
              Em
ma na planeti nema je

D
Njena je kuca tu gde nevera zivi
H
u njenim rukama i zlato posivi

Ref:
  C   D      Em    C             D     Am
A ja iako to znam, i ove noci je budan sanjam
  C   D      Em          D   C
a ja iako to znam uvek zaboravljam

  C   D      Em    C             D     Am
A ja iako to znam, i ove noci je budan sanjam
  C   D      Em            D   C
a ja iako to znam nju ne zaboravljam

Za nju je ljubav drugo ime za gimnastiku,
i sve jos za njom lazno mirise na plastiku
pitam se, a sto ne mogu jos bez nje

Na mome stolu garnitura laznih noktiju
i vonderbra u boji koze ispod kreveta
to je sve, sto ostalo je iza nje
Njena je kuca tu gde nevera zivi
u njenim rukama i zlato posivi

Ref:
A ja iako to znam, i ove noci je budan sanjam
a ja iako to znam uvek zaboravljam
A ja iako to znam, i ove noci je budan sanjam
a ja iako to znam nju ne zaboravljam

- solo -

Njena je kuca tu gde nevera zivi
u njenim rukama i zlato posivi

Ref:

***VERZIJA 2***
Transkripcija: Urkes

UVOD(solo):
E ------------------------------------------------------|
H ----------------------------------17b19---17--15------|
G -9---------7h9-----9--7h9-------------------------17--|
D ------------------9-----------------------------------|
A ------------------------------------------------------|
E ------------------------------------------------------|

E ------------------------------------------------------|
H ------------------------------------------------------|
G -9---7h9----------------------------------------------|
D ------------9-----------------------------------------|
A ----------------9--10-s-12---10---9---7---------------|
E ------------------------------------------------------|

2 Solo:
E ------------------------------------------------------|
H --8--10--8--7--8------7--8--10--8--7--8--7-s-5--------|
G ------------------------------------------------------|
D ------------------------------------------------------|
A ------------------------------------------------------|
E ------------------------------------------------------|

h - hammer
b - bend
s - slide

Valjda je dobro. ;)

Pozdrav od Urkesa

***VERZIJA 3***
Transkripcija: djolle - djollee@sezampro.yu

intro solo:
E--------------------------------------|----------------------------
B------------------------^-------------|----------------------------
G--9~-7h9p7-------9~-7-9-9a.h.-7-------|--9~-7h9p7------------------
D-------------9~------------------10~--|------------9~--4-5-7-5-4---
A--------------------------------------|--------------------------7~
E--------------------------------------|----------------------------

solo:
E---------------------------------------------------------------
B---------------------------------------------------------------
G--12-14-12-11-12--11~---12--14-12-11-12-11---------------------  2x
D-------------------------------------------14~-----------------
A---------------------------------------------------------------
E---------------------------------------------------------------

poz. svima   Djolle

***VERZIJA 4***
Transkripcija: Vedran Tomicic, email:vedran_tomy@yahoo.com


E5
Na mome stolu garnitura laznih noktiju
I vonderbra u boji koze ispod kreveta
A5                       E5
to je sve, sto ostalo je iza nje

E5
Na mome srcu ujed zmije, crna zavesa
                                        A5
A ti me druze pitas znam li koja adresa njena je,
              E5
Ma na planeti nema je

D5
Njena je kuca tu gde nevera zivi
H5
U njenim rukama i zlato posivi

REF:
  C5   D5      E5    C5           D5    A5
A ja iako to znam, i ove noci je budan sanjam
  C5   D5      E5          D5   C5
A ja iako to znam nju ne zaboravljam
  C5   D5      E5    C5           D5    A5
A ja iako to znam, i ove noci je budan sanjam
  C5   D5      E5           D5   C5
A ja iako to znam nju ne zaboravljam

Za nju je ljubav drugo ime za gimnastiku,
I sve jos za njom lazno mirise na plastiku
Pitam se, a sto ne mogu jos bez nje

Na mome stolu garnitura laznih noktiju
I vonderbra u boji koze ispod kreveta
To je sve, sto ostalo je iza nje
Njena je kuca tu gde nevera zivi
U njenim rukama i zlato posivi

REF: 2x

              - solo -
              (Em,G,D,C)

Njena je kuca...

Video Tutorijali

Embedded thumbnail for Turski Mars Vjezba 7 Embedded thumbnail for Turski Mars Vjezba 6 Embedded thumbnail for Turski Mars Vjezba 5 Embedded thumbnail for Turski Mars Vjezba 4
Embedded thumbnail for Turski Mars Vjezba 2 Embedded thumbnail for Turski Mars Vjezba 1 Embedded thumbnail for Skale za vjezbanje brzine soliranja Embedded thumbnail for Lekcija flamenco ritam - Rasqueado
Embedded thumbnail for Lekcija o picado flamenco style Embedded thumbnail for Osnovi prstometa ili fingerstyle

Pages

Zadnja azuriranja

akordionline Crvena Jabuka - Sampanjski poljubac - Akordi za gitaru Friday, August 4, 2017 - 23:33
akordionline Turski Mars Vjezba 7 Sunday, July 30, 2017 - 23:25
akordionline Turski Mars Vjezba 6 Sunday, July 30, 2017 - 23:23
akordionline Turski Mars Vjezba 5 Sunday, July 30, 2017 - 23:22
akordionline Turski Mars Vjezba 4 Sunday, July 30, 2017 - 23:20
akordionline Turski Mars Vjezba 2 Sunday, July 30, 2017 - 23:18
akordionline Turski Mars Vjezba 1 Sunday, July 30, 2017 - 23:17
akordionline Ilma Karahmet - Ne zovi me tugo - Akordi Sunday, July 16, 2017 - 13:08
akordionline Ibro Bublin - Luce - Akordi Sunday, July 16, 2017 - 12:39
akordionline Mirza Selimovic - Brod ludaka Akordi Sunday, July 16, 2017 - 13:09

Pages

Zadnji radovi Clanova

Goran Karan- Znam nisam te vrijedan boky87 Sunday, April 9, 2017 - 20:42
Goran Karan- Vagabundo boky87 Sunday, April 9, 2017 - 20:42
Goran Karan- Samo moru virujem boky87 Sunday, April 9, 2017 - 20:41
Goran Karan- Prozor kraj đardina boky87 Sunday, April 9, 2017 - 20:41
Goran Karan- Partenca (ay, ay, ay) boky87 Sunday, April 9, 2017 - 20:37
Goran Karan- Ostani boky87 Sunday, April 9, 2017 - 20:37
Goran Karan- Od srca do usana boky87 Sunday, April 9, 2017 - 20:36
Goran Karan- Novi dan boky87 Sunday, April 9, 2017 - 20:36
Goran Karan- Ne šalji lađe boky87 Sunday, April 9, 2017 - 20:35
Goran Karan- Lipa si lipa boky87 Sunday, April 9, 2017 - 20:33

Pages