Colonia- Deja vu

Intro:
|Ebm  |Abm  |Db   |Ebm* |
|Ebm  |Abm  |Db   |Bb   | par puta


         Ebm        B          Db        Ebm
Jutro se budi sjene plesu svoj poslednji ples
         B          Db    Ebm
jos samo fali jedna topla rijec
        B     Db     B          Bb
sve one ruzne stvari ostace iza nas.

Meni je lako, oprostiti nekome kog volim
i biti ponosna dok boli
ali je tesko s usana tvojih, otopiti led.

           Ebm            Abm
C'est deja vu , sve je uzalud
          Db              Ebm*
shvati da je mozda zadnji put
     Ebm            Abm
deja vu vec vidjeno sve
         Db      Bb
ljubav polako umire

Jutro se budi ovo je stanica na kraju price
jos samo fali jedna tocka na i
sve ono sto smo bili postaje zvjezdani trag.

Ne, nije lako izgubiti nekoga kog volis
i biti ponosna dok boli
al nisam mogla sa usana tvojih otopiti led.

C'est deja vu , sve je uzalud
shvati da je bio zadnji put
deja vu vec vidjeno sve
ljubav sa jutrom nestaje.

Solo: (intro pratnja)

...

* = Moze se svirati F# umjesto Ebm ...


***VERZIJA 2***
Transkripcija: Kornelije Sajler (xajler@yahoo.co.uk)
B=H

Akordi:
  D#m  G#m   C#    A#   B
e--6----4----------6------
B--7----4----6-----6----4-
G--8----4----6-----7----4-
D--8----6----6-----8----4-
A--6----6----4-----8----2-
E-------4----------6------


 UVOD:
                  D#m    G#m            C#        D#m
e|--------------------------|-----------------------|-----
B|-------------6-7-77-6-7---|--------6-77-6---------|-----
G|------8---8---------------|-----8-----------6-----|-----
D|--/8---8------------------|--8-----------------8--|-----
A|--------------------------|-----------------------|-----
E|--------------------------|-----------------------|-----

                   G#m             C#       A#
e|------------------------|-------------------------|-----
B|--------6-7-77-6-7/9-9--|--9h7-6-7/9-99-7-9/11----|-----
G|-----8------------------|-------------------------|-----
D|--8---------------------|-------------------------|-----
A|------------------------|-------------------------|-----
E|------------------------|-------------------------|-----
   Synth arr. za gitaru

    D#m        G#m             C#             D#m
e|--------------------------|---------------------|-----
B|--------------------------|---------------------|-----
G|--------------------------|---------------------|-----
D|--8-8--8-6-8-9-8-6---6h8--|--6-6--6---6-8-9-8---|-----
A|-------------------9------|---------9-----------|-----
E|--------------------------|---------------------|-----

    D#m        G#m            C#          A#
e|--------------------------|------------------|-----
B|--------------------------|------------------|-----
G|--------------------------|------------------|-----
D|--8-8--8-6-8-9-8-6---6h8--|-6-6--6-----------|-----
A|-------------------9------|--------9-8-6-8---|-----
E|--------------------------|------------------|-----


        D#m
Jutro se budi
       B           C#       D#m
Sjene plesu svoj posljednji ples
     B          C#    D#m
Samo fali jedna topla rijec
        B     C#
Sve one ruzne stvari
B            A#
Ostat ce iza nas
        D#m
Tebi je lako
 B        C#         D#m
Oprostiti nekome kog volim
       B   C#     D#m
I biti ponosan do boli
     B         C#    B
Al' tesko je s usana tvojih
        A#
Otopiti led

            D#m
Sve je Deja-vu
          G#m
Sve je uzalud
          C#              D#m
Shvati da je mozda zadnji put
     D#m
Deja-vu
           G#m
Vec vidjeno sve
       C#        A#
Ljubav polako umire

         D#m
Jutro se budi
       B           C#    D#m
Ovo je stranica na kraju price
         B    C#       D#m
Jos samo fali tocka na i
        B       C#
Sve ono sto smo bili
B                 A#
Postaje zvjezdani trag
        D#m
Meni je lako
 B       C#          D#m
Izgubiti nekoga kog' volim
       B   C#     D#m
I biti ponosna do boli
        B        C#    B
Ali sam mogla sa usana tvojih
        A#
Otopiti led

           D#m
Sve je Deja-vu
          G#m
Sve je uzalud
          C#              D#m
Shvati da je mozda zadnji put
     D#m
Deja-vu
           G#m
Vec vidjeno sve
       C#        A#
Ljubav polako umire
     D#m
Deja-vu

Video Tutorijali

Embedded thumbnail for Turski Mars Vjezba 7 Embedded thumbnail for Turski Mars Vjezba 6 Embedded thumbnail for Turski Mars Vjezba 5 Embedded thumbnail for Turski Mars Vjezba 4
Embedded thumbnail for Turski Mars Vjezba 2 Embedded thumbnail for Turski Mars Vjezba 1 Embedded thumbnail for Skale za vjezbanje brzine soliranja Embedded thumbnail for Lekcija flamenco ritam - Rasqueado
Embedded thumbnail for Lekcija o picado flamenco style Embedded thumbnail for Osnovi prstometa ili fingerstyle

Pages

Zadnja azuriranja

akordionline Kako nauciti svirati gitaru Saturday, August 26, 2017 - 07:16
akordionline Crvena Jabuka - Sampanjski poljubac - Akordi za gitaru Friday, August 4, 2017 - 23:33
akordionline Turski Mars Vjezba 7 Sunday, July 30, 2017 - 23:25
akordionline Turski Mars Vjezba 6 Sunday, July 30, 2017 - 23:23
akordionline Turski Mars Vjezba 5 Sunday, July 30, 2017 - 23:22
akordionline Turski Mars Vjezba 4 Sunday, July 30, 2017 - 23:20
akordionline Turski Mars Vjezba 2 Sunday, July 30, 2017 - 23:18
akordionline Turski Mars Vjezba 1 Sunday, July 30, 2017 - 23:17
akordionline Ilma Karahmet - Ne zovi me tugo - Akordi Sunday, July 16, 2017 - 13:08
akordionline Ibro Bublin - Luce - Akordi Sunday, July 16, 2017 - 12:39

Pages

Zadnji radovi Clanova

Goran Karan- Znam nisam te vrijedan boky87 Sunday, April 9, 2017 - 20:42
Goran Karan- Vagabundo boky87 Sunday, April 9, 2017 - 20:42
Goran Karan- Samo moru virujem boky87 Sunday, April 9, 2017 - 20:41
Goran Karan- Prozor kraj đardina boky87 Sunday, April 9, 2017 - 20:41
Goran Karan- Partenca (ay, ay, ay) boky87 Sunday, April 9, 2017 - 20:37
Goran Karan- Ostani boky87 Sunday, April 9, 2017 - 20:37
Goran Karan- Od srca do usana boky87 Sunday, April 9, 2017 - 20:36
Goran Karan- Novi dan boky87 Sunday, April 9, 2017 - 20:36
Goran Karan- Ne šalji lađe boky87 Sunday, April 9, 2017 - 20:35
Goran Karan- Lipa si lipa boky87 Sunday, April 9, 2017 - 20:33

Pages