Duo Pegla- Dalmatinac

*
     Em		                       B7          Em	
Dalmatinac nosi lancic oko vrata; nosi more u svom oku.
				        B7         Em
Dalmatinac nosi lancic oko vrata; tajnu lijepu i duboku.
      Am            Em           B7     Em
On je sanjar, on je ptica Bijela ptica Lutalica.
    Am          Em            B7         Em      D
Ali sve to srce placa - on se uvijek domu vraca.

G			D      Em                    B7   D
Dalmatinac pamti ljubav staru; sanja barku, rivu i gitaru.
G	               D     Em                      B7
Dalmatinac cuva nocu - danju svoju pjesmu; maslinovu granu.
          Em
Maslinovu granu.

**
           Fm
Dalmatinac nosi lancic oko vrata; nosi sunce na svom dlanu.
Dalmatinac nosi lancic oko vrata; bol i radost - suzu slanu.
On je sanjar, on je ptica Bijela ptica Lutalica.
Ali sve to srce placa - on se uvijek domu vraca.

Dalmatinac pamti ljubav staru; sanja barku, rivu i gitaru.
Dalmatinac cuva nocu - danju svoju pjesmu; maslinovu granu.

Dalmatinac pamti ljubav staru; sanja barku, rivu i gitaru.
Dalmatinac cuva nocu - danju svoju pjesmu; maslinovu granu.

Fade Out

*
   G                 D         B7     Em    Am    Em
E |7------7-12-10-8-7-----------8-7-------7-7h8-10-7--------|
B |----8-8-----------10---7-7-10---10-7---------------------|
G |------------------------------------9--------------------|
D |---------------------------------------------------------|
A |---------------------------------------------------------|
E |---------------------------------------------------------|

**
  Em                           B7     Em      B7        Em     D
                          1st time  Repeat|2nd time
E |----7-77-77-7-8-10-8-7-|-8-77---7---8-7|-8-77------------|--------
B |--8--------------------|-----7---10----|-----7---10-8-7--|----8-10
G |9----------------------|---------------|----------------9|-777----
D |-----------------------|---------------|-----------------|--------
A |-----------------------|---------------|-----------------|--------
E |-----------------------|---------------|-----------------|--------

   G		      D  Em               B7		Em     C7
E |7------7-12-10-8-7---|--------8-7---------------------------|
B |----8-8-----------10-|-8-----8----10-8/12-----7-8-7h8p7-----|
G |---------------------|----9-9--------------------------9----|
D |---------------------|----------------------9---------------|
A |---------------------|--------------------------------------|
E |---------------------|--------------------------------------|


Video Tutorijali

Embedded thumbnail for Turski Mars Vjezba 7 Embedded thumbnail for Turski Mars Vjezba 6 Embedded thumbnail for Turski Mars Vjezba 5 Embedded thumbnail for Turski Mars Vjezba 4
Embedded thumbnail for Turski Mars Vjezba 2 Embedded thumbnail for Turski Mars Vjezba 1 Embedded thumbnail for Skale za vjezbanje brzine soliranja Embedded thumbnail for Lekcija flamenco ritam - Rasqueado
Embedded thumbnail for Lekcija o picado flamenco style Embedded thumbnail for Osnovi prstometa ili fingerstyle

Pages

Zadnja azuriranja

akordionline Kako nauciti svirati gitaru Saturday, August 26, 2017 - 07:16
akordionline Crvena Jabuka - Sampanjski poljubac - Akordi za gitaru Friday, August 4, 2017 - 23:33
akordionline Turski Mars Vjezba 7 Sunday, July 30, 2017 - 23:25
akordionline Turski Mars Vjezba 6 Sunday, July 30, 2017 - 23:23
akordionline Turski Mars Vjezba 5 Sunday, July 30, 2017 - 23:22
akordionline Turski Mars Vjezba 4 Sunday, July 30, 2017 - 23:20
akordionline Turski Mars Vjezba 2 Sunday, July 30, 2017 - 23:18
akordionline Turski Mars Vjezba 1 Sunday, July 30, 2017 - 23:17
akordionline Ilma Karahmet - Ne zovi me tugo - Akordi Sunday, July 16, 2017 - 13:08
akordionline Ibro Bublin - Luce - Akordi Sunday, July 16, 2017 - 12:39

Pages

Zadnji radovi Clanova

Goran Karan- Znam nisam te vrijedan boky87 Sunday, April 9, 2017 - 20:42
Goran Karan- Vagabundo boky87 Sunday, April 9, 2017 - 20:42
Goran Karan- Samo moru virujem boky87 Sunday, April 9, 2017 - 20:41
Goran Karan- Prozor kraj đardina boky87 Sunday, April 9, 2017 - 20:41
Goran Karan- Partenca (ay, ay, ay) boky87 Sunday, April 9, 2017 - 20:37
Goran Karan- Ostani boky87 Sunday, April 9, 2017 - 20:37
Goran Karan- Od srca do usana boky87 Sunday, April 9, 2017 - 20:36
Goran Karan- Novi dan boky87 Sunday, April 9, 2017 - 20:36
Goran Karan- Ne šalji lađe boky87 Sunday, April 9, 2017 - 20:35
Goran Karan- Lipa si lipa boky87 Sunday, April 9, 2017 - 20:33

Pages