Duo Pegla- Mi imamos mnogos problemos

G       D         G
Mi imamos mnogos problemos
G                    D
I lutamo svjetos bez kintos
D       C        D                               G
Nosimo brkove s' ocales a svi nas zovu speedy Gonzales
D      C         D                               G
Nosimo brkove s' ocales a svi nas zovu speedy Gonzales

D             G
Haaaj mama Huanita
G  D                G
Gonzales po svijetu skita   (x2)

   G       D         G
Mi imamos mnogos problemos
G                    D
I lutamo svjetos bez kintos
D       C        D                              G
Sviramo stares gitares a svi nas zovu speedy Gonzales
D       C        D                              G
Sviramo stares gitares a svi nas zovu speedy Gonzales

D             G
Haaaj mama Huanita
G  D                G
Gonzales po svijetu skita ( x3 )


Truba tema:
 D                 G         D
-------------5~---8~---8--7--5--7~---7-7-5-5-3-3------2~---2--5-5~---8~--
-----0-1-3~--------------------------------------3~----------------------
-0-2---------------------------------------------------------------------
-------------------------------------------------------------------------
-------------------------------------------------------------------------
-------------------------------------------------------------------------

                G
--7--8--10--8--7--8--7--------------------7~---7-8-7---------------------
------------------------10--8~---8-7-8-10------------10-8~---------------
-------------------------------------------------------------------------
-------------------------------------------------------------------------
-------------------------------------------------------------------------
-------------------------------------------------------------------------

Video Tutorijali

Embedded thumbnail for Ritam 4/4 na gitari Embedded thumbnail for Ritam 9/8 na gitari Embedded thumbnail for Razlaganje i ritam lagana kombinacija za balade Embedded thumbnail for Narodnjacka rumba sa prigusivanjem zica
Embedded thumbnail for Razlaganje akorda Embedded thumbnail for Razlaganje akorda kao u pjesmi Jer tuga zna Tifa Embedded thumbnail for Prigusivanje zica u ritmu Embedded thumbnail for Turski Mars Vjezba 7
Embedded thumbnail for Turski Mars Vjezba 6 Embedded thumbnail for Turski Mars Vjezba 5

Pages

Zadnja azuriranja

akordionline Zdravko Colic - Merak mi je - Akordi za gitaru Thursday, December 7, 2017 - 00:19
akordionline Serif Konjevic - Nisam te ponizio - akordi za gitaru Thursday, December 7, 2017 - 00:16
akordionline Armin Bijedic - Snijegovi - Akordi za gitaru Thursday, November 9, 2017 - 21:49
akordionline Ritam 4/4 na gitari Monday, November 6, 2017 - 22:36
akordionline Ritam 9/8 na gitari Monday, November 6, 2017 - 22:34
akordionline Razlaganje i ritam lagana kombinacija za balade Monday, November 6, 2017 - 22:33
akordionline Narodnjacka rumba sa prigusivanjem zica Monday, November 6, 2017 - 22:31
akordionline Razlaganje akorda Monday, November 6, 2017 - 22:30
akordionline Razlaganje akorda kao u pjesmi Jer tuga zna Tifa Monday, November 6, 2017 - 22:27
akordionline Prigusivanje zica u ritmu Monday, November 6, 2017 - 22:26

Pages

Zadnji radovi Clanova

Goran Karan- Znam nisam te vrijedan boky87 Sunday, April 9, 2017 - 20:42
Goran Karan- Vagabundo boky87 Sunday, April 9, 2017 - 20:42
Goran Karan- Samo moru virujem boky87 Sunday, April 9, 2017 - 20:41
Goran Karan- Prozor kraj đardina boky87 Sunday, April 9, 2017 - 20:41
Goran Karan- Partenca (ay, ay, ay) boky87 Sunday, April 9, 2017 - 20:37
Goran Karan- Ostani boky87 Sunday, April 9, 2017 - 20:37
Goran Karan- Od srca do usana boky87 Sunday, April 9, 2017 - 20:36
Goran Karan- Novi dan boky87 Sunday, April 9, 2017 - 20:36
Goran Karan- Ne šalji lađe boky87 Sunday, April 9, 2017 - 20:35
Goran Karan- Lipa si lipa boky87 Sunday, April 9, 2017 - 20:33

Pages