Osvajaci - Osvajaci


e|---------------------------------
H|---------------------------------
G|---------------------------------
D|-0-0-0-3-0-7-0-5-0-8-0-7-0-10-0--
A|---------------------------------
E|---------------------------------

e|----------------------------------
H|----------------------------------
G|----------------------------------
D|--12-0-0-3-0-7-0-5-0-8-0-7-0-10-0-   5x
A|----------------------------------
E|----------------------------------

Prelaz: B5 A5 G5 A5 C5 

e|---------------------------------
H|---------------------------------
G|---------------------------------
D|-0-0-0-3-0-7-0-5-0-8-0-7-0-10-0--
A|---------------------------------
E|---------------------------------

e|----------------------------------
H|----------------------------------
G|----------------------------------
D|--12-0-0-3-0-7-0-5-0-8-0-7-0-10-0-   3x
A|----------------------------------
E|----------------------------------

Prelaz: B5 A5 G5 A5 C5 

Dm
Zadnji je čas pred potopa
Dm
A meni brod već izmiče
Dm
Na vratu su mi strah i bol
B             F             C
Zagrizi jače, kraj nek bude priče

Dm
Skini mi laž sa očiju
Dm
Tu masku znam od ranije
Dm
Ako si prava, ostani
B           F        C
aa ako nisi uzalud te krije
B                            Dm
Neću da molim, znaš ti dobro to
B                     G
I posle tebe biću ponovo

Dm (uvodni solo)
Sam, ja znam
B            F        C   
Ako sad odeš ostaću zauvek
Dm (uvodni solo)
Sam, i znam
B                 f          C
Krećem ka dnu gde mnogo puta bio sam

Skini mi laž sa očiju
Tu masku znam od ranije
Ako si prava, ostani
A ako nisi uzalud te krije
Neću da molim, znaš ti dobro to
I posle tebe biću ponovo

Sam, ja znam
Ako sad odeš ostaću zauvek sam
Sam, i znam
Krećem ka dnu gde mnogo puta bio sam

Video Tutorijali

Embedded thumbnail for Turski Mars Vjezba 7 Embedded thumbnail for Turski Mars Vjezba 6 Embedded thumbnail for Turski Mars Vjezba 5 Embedded thumbnail for Turski Mars Vjezba 4
Embedded thumbnail for Turski Mars Vjezba 2 Embedded thumbnail for Turski Mars Vjezba 1 Embedded thumbnail for Skale za vjezbanje brzine soliranja Embedded thumbnail for Lekcija flamenco ritam - Rasqueado
Embedded thumbnail for Lekcija o picado flamenco style Embedded thumbnail for Osnovi prstometa ili fingerstyle

Pages

Zadnja azuriranja

akordionline Kako nauciti svirati gitaru Saturday, August 26, 2017 - 07:16
akordionline Crvena Jabuka - Sampanjski poljubac - Akordi za gitaru Friday, August 4, 2017 - 23:33
akordionline Turski Mars Vjezba 7 Sunday, July 30, 2017 - 23:25
akordionline Turski Mars Vjezba 6 Sunday, July 30, 2017 - 23:23
akordionline Turski Mars Vjezba 5 Sunday, July 30, 2017 - 23:22
akordionline Turski Mars Vjezba 4 Sunday, July 30, 2017 - 23:20
akordionline Turski Mars Vjezba 2 Sunday, July 30, 2017 - 23:18
akordionline Turski Mars Vjezba 1 Sunday, July 30, 2017 - 23:17
akordionline Ilma Karahmet - Ne zovi me tugo - Akordi Sunday, July 16, 2017 - 13:08
akordionline Ibro Bublin - Luce - Akordi Sunday, July 16, 2017 - 12:39

Pages

Zadnji radovi Clanova

Goran Karan- Znam nisam te vrijedan boky87 Sunday, April 9, 2017 - 20:42
Goran Karan- Vagabundo boky87 Sunday, April 9, 2017 - 20:42
Goran Karan- Samo moru virujem boky87 Sunday, April 9, 2017 - 20:41
Goran Karan- Prozor kraj đardina boky87 Sunday, April 9, 2017 - 20:41
Goran Karan- Partenca (ay, ay, ay) boky87 Sunday, April 9, 2017 - 20:37
Goran Karan- Ostani boky87 Sunday, April 9, 2017 - 20:37
Goran Karan- Od srca do usana boky87 Sunday, April 9, 2017 - 20:36
Goran Karan- Novi dan boky87 Sunday, April 9, 2017 - 20:36
Goran Karan- Ne šalji lađe boky87 Sunday, April 9, 2017 - 20:35
Goran Karan- Lipa si lipa boky87 Sunday, April 9, 2017 - 20:33

Pages