Amadeus- Ona i ja

Intro:
e|-------------|--6-6p5-5p3-1h3-3-----|
h|-------------|----------------------|
g|-------3-0---|----------------------|
D|-----3-------|----------------------|
A|---5---------|----------------------|
E|-------------|----------------------|

I
      Gm          F
Ona i ja, vatra i voda kazu ne ide,
Gm           D#   F
sve dok nas ne vide.
      Gm           D#      F
Ona i ja, niko i neko idu daleko,
 D#         F            D#        F
kad je ovde ja je necu, ako ode umrecu.

II
Ona i ja, crno i belo kakva razlika,
srcu se otela.
Ona i ja, niko i neko idu daleko,
kad je ovde ja je necu, ako ode bez nje necu srecu.

Ref:
B            D#        F
Bicu iskren jer sam lagao,
F            D#      F  Gm
nisam iskren al' bih probao,
Gm           D#        F
da se rodim nju bih ljubio,
D#         F     Gm
radio bih sve ponovo.

III
Ona i ja, korak do snova nikad sanjali,
u masti rodjeni.
Ona i ja, niko i neko idu daleko,
kad je ovde ja je necu, ako ode bez nje necu srecu.

Ref: x 3

Solo:

Ref: modulacija ceo ton (C)


***VERZIJA 2***
Transkripcija: lector

SOLO:
   Am            F              G          Em
E||-------17~-----------------|----17--15--------------------------------|
B||---------------------------|------------17--20h17h20-17--15h17h15-17--|
G||---------------------------|------------------------------------------|
D||---------------------------|------------------------------------------|
A||---------------------------|------------------------------------------|
E||---------------------------|------------------------------------------|
   Am             F                         G
E||--------------------------------------|-------------------------------|
B||--17h15h17-15--15----13------------13-|-------------------------------|
G||------------------14-----14-12-14-----|--14---14-12-------------------|
D||--------------------------------------|-------------14-13-14-13-12----|
A||--------------------------------------|----------------------------12-|
E||--------------------------------------|-------------------------------|
   Am         F                   G          Em
E||----------------------------|-----------------------------------------|
B||----------------------------|-----------------------------------------|
G||--5-------------------------|------------------5----------------------|
D||-------7-5-7----5-----------|-----------5-7-5-------7-----------------|
A||-------------------5--------|-------7---------------------------------|
E||----------------------8-5---|--8--------------------------------------|
    Dm        C                          F                G
E||------------------12----------12---|--13-------12--13--15------------||
B||--15------13--15----------15-------|---------------------------------||
G||------------------12----------12---|--14-------12--14--16------------||
D||--15------14--15----------15-------|---------------------------------||
A||-----------------------------------|---------------------------------||
E||-----------------------------------|---------------------------------||

Pages

Zadnja azuriranja

Ahoj lipi galebe moj akordionline 11/08/2015 - 23:07
Libar od mojega duga akordionline 11/08/2015 - 23:05
Judi zviri bestije akordionline 11/08/2015 - 23:04
Ja cu budan sanjati akordionline 11/08/2015 - 23:03
Tempera akordionline 11/08/2015 - 23:02
Dvije duse akordionline 11/08/2015 - 23:01
Dobri ljudi akordionline 11/08/2015 - 23:01
Cinim pravu stvar akordionline 11/08/2015 - 23:00
Andjeo u tebi akordionline 11/08/2015 - 22:59
Gipsy song akordionline 11/08/2015 - 22:46

Pages