Amadeus- Kupi me

Uvod:F#m A E Hm

F#m         A               E  
Nisam nasao mir samo dublji vir
             Hm             F#m
Reke sudbine zle sto je odvede
F#m         A               E
Nisam nasao put da prebolim nju
         Hm       D            E
Svud sam prosao u mestu ostao, ostao
Nek mi oprosti Bog sto ti stvaram bol
Uvek kada si tu vidim samo nju
Krv mi ponovo vri dok me gledas ti njenim ocima, njenim ocima

(F#m, A, E, Hm)   
Kupi me sa dve,tri lazi
Pocni tamo gde je ona stala
I svako ima svoju cenu
A moja je nocas mala

Kome srce da dam nju da ne sanjam
Kada zalud je sve stalno vraca se
Krv mi ponovo vri dok me gledas ti njenim ocima, njenim ocima

***VERZIJA 2***
Transkripcija: Gvozden Conjic (konsal@mail.com - Kirk_H.)


Uvod:F#m A E Hm x2

E|----------------------------|----------------------------|
B|------14h15h14----------14--|------14h15h14----------12--|
G|--------------------14------|--------------------14------|
D|----------------------------|----------------------------|
A|----------------------------|----------------------------|
E|----------------------------|----------------------------|

E|-------------|-------------------------|----------------------------|
H|-----12--12--|------10----9----10------|------14h15h14----------14--|
G|---9---------|---------------------11--|--------------------14------|
D|-------------|-------------------------|----------------------------|
A|-------------|-------------------------|----------------------------|
E|-------------|-------------------------|----------------------------|
 
E|----------------------------|-----------------------|------------------------|
H|------14h15h14----------12--|---------------12--12--|------14----------12----|
G|--------------------14------|------------9----------|------------14----------|
D|----------------------------|-----------------------|------------------------|
A|----------------------------|-----------------------|------------------------|
E|----------------------------|-----------------------|------------------------|

F#m         A               E  
Nisam nasao mir samo dublji vir
             Hm             F#m
Reke sudbine zle sto je odvede
F#m         A               E
Nisam nasao put da prebolim nju
         Hm           D            E
Svud sam prosao u mestu ostao, ostao

Nek mi oprosti Bog sto ti stvaram bol
Uvek kada si tu vidim samo nju
Krv mi ponovo vri dok me gledas ti njenim ocima, njenim ocima

     F#m           A
Kupi me sa dve,tri lazi
      E               Hm
Pocni tamo gde je ona stala
        F#m          A
I svako ima svoju cenu
  E             Hm
A moja je nocas mala

Kome srce da dam nju da ne sanjam
Kada zalud je sve stalno vraca se
Krv mi ponovo vri dok me gledas ti njenim ocima, njenim ocima

Solo:
E|-------------------------------12-11-12-9-12----12----12----12-------|
H|--12~--------------12/14---------------------12----11----------------|
G|-------15------------------------------------------------13----------|
D|----------16---------------------------------------------------------|
A|-------------16------------------------------------------------------|
E|---------------------------------------------------------------------|

E|--12/14-12--11b-11b----9-7-9------4h6h7--6h7h9--7h9h11----------------|
H|-----------------------------7-7--------------------------------------|
G|----------------------------------------------------------------------|
D|----------------------------------------------------------------------|
A|----------------------------------------------------------------------|
E|----------------------------------------------------------------------|

Pages

Zadnja azuriranja

Hajde da se volimo Adi 11/05/2015 - 18:14
ÄŒovek od meda Adi 11/05/2015 - 18:14
Bolje da sam druge ljubio Adi 11/05/2015 - 18:13
April u Beogradu Adi 11/05/2015 - 18:12
Nikola Adi 11/05/2015 - 18:11
Sve smo mogli mi Adi 11/05/2015 - 18:10
Å to te nema Adi 11/05/2015 - 18:09
Slavenska minijatura Adi 11/04/2015 - 23:37
Lagano umirem Adi 11/04/2015 - 23:36
Gradske cure Adi 11/04/2015 - 23:35

Pages