Carstvo samoce

Intro riff:
                                                      C5     G5              
|-------------------|---------------------------|
|-------------------|---------------------------|      
|-------------------|.-------------------------.| (8x)
|-------------------|.-2---2-2-----2-----2-----.|
|-------------2-----|--0---0-3p0---0-0---0-5/6--|
|-------------0-3-4-|------------3---------3/4--|


A5                C5
Nocima ne spavam, gledam u mrak                 Riff A:
G5                  /riff A/      G5          D|--------------|
Svjetlosti trazim i najmanji trag             A|--------3-----|
Djevojka kraj mene kao da nije tu             E|--3--4-----5~-|
Ne osjecam nista, bas nista za nju

/Intro riff/

Razmisljam o svemu, o sebi, o njoj
O carstvu samoce u ljubavi toj
Sadasnjost i proslost vode nas ka dnu
Buducnost se gubi u nejasnom snu


Solo (2x):
  Am                 G [X.]              Dm                   E
|-5-8p5---8p5------|---10p7---10p7-----|---17p13--17p13-----|-12-16p12--16p12-----|
|-------5-----5 ...|-8------8------8...|-15-----15-----15...|---------12-----12...|
|.----------------.|.-----------------.|.------------------.|.-------------------.|
|.----------------.|.-----------------.|.------------------.|.-------------------.|
|------------------|-------------------|--------------------|---------------------|
|------------------|-------------------|--------------------|---------------------|


C           Dm   Bb      A
U carstvu samoce izmedju nas
Prazna tisina dosadi(?) znak 
Zar cigarete, tezak je zrak
Glumim joj ljubav, trazeci spas   /intro riff/


A5                     C5
Ne izlazimo cesto, jer ne voli to
G5                  /riff A/      G5
A svadje sve cesce nam donose zlo
U drustvu je hladna i odbojna sva
Ogovara svakog - to sve je sto zna

Od nje se ne cuje povoljan sud
Nikom nije draga ta njezina cud
Nema povjerenja u meni za nju
Buducnost nas ceka u srusenom snu

Pages