Željko Bebek- Mene tjera neki vrag (uvod)

riff
E||-----------------------------------------------|
B||-----------------------------------------------|
G||--4--4--4-----------------------2--------------|
D||--4--4--4----5----7--7--7-----------4---2---4--|
A||--2--2--2----5----7--7--7----------------------|
E||-------------3----5--5--5----------------------|


tema                                                                 
E||--------14--17--14------14-----------14--17--14------14--14----------|
B||-15h17--------------17-------15h17---------------17----------17--17--|
G||---------------------------------------------------------------------|2x
D||---------------------------------------------------------------------|
A||---------------------------------------------------------------------|
E||---------------------------------------------------------------------|

Pages