Željko Bebek- Tko će da mi sudi (uvod)

E||-------17---19---22-24--22------------|
B||--20--------------------------22--22--|
G||--------------------------------------|
D||--------------------------------------|
A||--------------------------------------|
E||--------------------------------------|

                                                                       
E||--22-24--22--------------------------||
B||---------------------------22----24--||
G||---------------24----24--------------||
D||-------------------------------------||
A||-------------------------------------||
E||-------------------------------------||

Pages

Zadnja azuriranja

M akordionline 10/21/2015 - 23:34
L akordionline 10/21/2015 - 23:34
K akordionline 10/21/2015 - 23:33
J akordionline 10/21/2015 - 23:33
I akordionline 10/21/2015 - 23:32
H akordionline 10/21/2015 - 23:31
G akordionline 10/21/2015 - 23:31
F akordionline 10/21/2015 - 23:30
E akordionline 10/21/2015 - 23:30
D akordionline 10/21/2015 - 23:28

Pages