Amadeus- Možda

Podjeli
Trose se drumovi, stig'o sam na kraj puta
Dalje od ovoga ne mogu ja.
Sve blize sam nevolji, sve dalje od svoga srca
Ne prima koren moj ,pustinja

     C                    Em
A ja kradem jos Bogu dane,trazim lek za rane
C        G         D
Sebi da, da oprostim, uuuuu

Mozda, da nisam krao osmeh sa tvog lica
Mozda, sad ne bi ziveo kao lutalica
Mozda, mi dani ne bi prolazili u tisini
Mozda kada bih je nazvao i rek'o joj izvini.

Srce je prepuno, strela iz njenog oka
Ja cuvam ih uporno kao uspomenu
Neka me secaju na dane iz starog bloka
Kada sam zadnji put povredio nju.

A ja kradem jos dane Bogu
Zelim al, ne mogu
Sebi da, da oprostim, uuuuu.

Mozda... 

glavni solo:
                                                 (-------------  BRZI DEO-----------------)
e--------7----------|-------------------|--------7-10-8-7-8-7--------------7---------------|
h-8-8-10--------7-8-|-------8-7-----8-7-|-8-8-10-------------10-8-7-8-10-----10-8-7-8-10---|
g-----------9-9-----|-7-7-9-----9-7-----|--------------------------------7---------------9-|
d-------------------|-------------------|--------------------------------------------------|
a-------------------|-------------------|--------------------------------------------------|
e-------------------|-------------------|--------------------------------------------------|

e-----------------------------------------------------------------------|
h------------------------------------------------------------------8-7--|
g-----------------------------------------------------------------------|
d-------------------------------------7-------7-9---7-9-10-9-7----------|
a--------7------7-9----7-9-10----9-10------10------------------10-------|
e---9-10-----10---------------------------------------------------------|

e-----------------7------------------------|-------7-------------------7---------|
h-7-8-10---7-8-10---10-8-7-10-8-7-----7-8--|-10-10---10-10-10-10-10-10---10-8-10-|
g---------------------------------9-7------|-------------------------------------|
d------------------------------------------|-------------------------------------|
a------------------------------------------|-------------------------------------|
e------------------------------------------|-------------------------------------|

e-------------7-10-10-7----------||
h-10-10-10-10-----------10-7-----||
g----------------------------9---||
d--------------------------------||
a--------------------------------||
e--------------------------------||

***VERZIJA 2***
Transkripcija: Advokat (raleduca@ptt.co.yu)


Em  C  G  D  (Mnogo je lepse ako se svira u Riff-u)

Trose se drumovi, stig'o sam na kraj puta
dalje od ovoga ne mogu ja.
Sve blize sam nevolji, sve dalje od svoga srca
ne prima koren moj, pustinja.

     Am
A ja kradem jos Bogu dane
C
trazim lek za rane
Am       C            Hm
sebi da, da optostim, uuuu.

Ref: Mozda da nisam krao osmeh sa tvog lica
     mozda sad ne bi ziveo kao lutalica.
     Mozda mi dani ne bi prolazili u tisini
     Am      C         Am             D
     mozda kada bih je nazvao i rek'o joj izvini.

Srce je prepuno strela iz njenog oka
ja cuvam ih uporno kao uspomenu.
Neka me secaju na dane iz starog bloka
kada sam zadnji put povredio nju.

A ja kradem jos dane Bogu
zelim al' ne mogu
sebi da, da oprostim, uuuu,

Ref: Mozda da nisam krao osmeh sa...

Solo: (malo doradjen u odnosu na onaj postojeci)
                                                      
e-----3)--3-5-7------------------------------------------
B----5)-------------5)--5-7-8--------8-7-----8~~~h10p8p7 (ovaj triler se jedva cuje
G---4)-------------5)---------7--7-9-----9-7------------- posto se brzo odsvira)
D-----------------5)-------------------------------------
A--------------------------------------------------------
E--------------------------------------------------------

   /Brzi deo...                                   ...\
e-----------7-10-8-7-8-7---------------7--------------
B---8--8-10--------------10-8-7-8-10-7---10-8-7---7---
G-----------------------------------------------9---7-
D-----------------------------------------------------
A-----------------------------------------------------
E-----------------------------------------------------

e----------------------------------------------------------------
B----------------------------------------------------------------
G----------------------------------------------------------------
D-----------------------------------7------7-9---7-9-10---9-7----
A---7~~h9-7---6-7-9---7-9-10---9-10-----10--------------------10-
E----------------------------------------------------------------

e-----------------------7------------------------------
B---8-7--7-8-10--7-8-10---10-8-7--10-8-7----7-8-9-10---
G----------------------------------------9-------------
D------------------------------------------------------
A------------------------------------------------------
E------------------------------------------------------

                                                  **        |       Kraj solaze     |
e-------------------------------------------------10-10-10--|-----------------------|
B---10-12p10--10-10-10-12p10--10---10-10-10-10-12-----------|-----------------8-7---|
G---------------------------12------------------------------|--12-11-9--ILI--9---9--|
D-----------------------------------------------------------|-12--------------------|
A-----------------------------------------------------------|-----------------------|
E-----------------------------------------------------------|-----------------------|

Ref: Mozda da nisam krao...

-- Nisam bas sjajno napravio razmake izmedju tonova u solazi, ali ce te provaliti
  sigurno --
**
10 -- Ovo nisam znao kako da obelezim pa sam stavio dve zvezdice, tu bi trebalo
      da se odsvira ton na 10 pragu tako sto se ne okida zica vec se samo udari
      po njoj na 10 pragu (nesto slicno kao Hamer on) i tako se dobije ton. 
      Udarac mora biti malo jaci... videce te vec!!!

~ -- pusti ton kratko 


***VERZIJA 3***
Transkripcija: mafia

uvod: Em,C,G,D 4X

Em       C       G                 D
Trose se drumovi,stigo sam na kraj puta
Em    C        G      D
Dalje od ovoga nemogu ja.
Em            C       G                  D
Sve blize sam nevolji,sve dalje od tvoga srca
Em       C         G     D
Ne prima koren moj pustinja.


Am
A ja kradem jos bogu dane
C
trazim lek za rane
Am      C         D
sebi da,da oprostim.
Bm
Uuu


      Em       C     G                  D
ref.  Mozda da nisam krao osmeh sa tvog lica
      Em    C         G               D
      Mozda sad ne bi ziveo kao lutalica.
      Em    C       G                    D
      Mozda mi dani ne bi prolazili u tisini
      Bm    C           Am                 D
      Mozda kada bih je nazvao i reko joj izvini.


Srce je prepuno strela iz njenog oka.
Ja cuvam ih uporno kao uspomenu.
Neka me secaju na dane iz starog bloka.
Kada sam zadnji put povredio nju.

Prelaz

Refren

solo:Em,C,G,D3xEm,C,F,D

Refren

Video Tutorijali

Embedded thumbnail for Lose vino - Cover na akusticnoj gitari Embedded thumbnail for Jedra - Tab intro - Sasa Kovacevic Embedded thumbnail for Jedra - Sasa Kovacevic - Intro na gitari - Lekcija Embedded thumbnail for Galija - Da li si spavala - acoustic 1995 - Cover
Embedded thumbnail for Sasa Kovacevic - Jedra - Cover sa Akordima za gitaru Embedded thumbnail for Sasa Kovacevic - Bez tebe me nema - akordi za gitaru Embedded thumbnail for Ritam za pjesmu Dva galeba Bela Embedded thumbnail for Saban Saulic - Dva galeba bela - cover
Embedded thumbnail for Za vjencanim stolom uvod - Fingerstyle Embedded thumbnail for Zeljko Vasic - Ti i Ja - Akordi za gitaru

Pages

Zadnji radovi Clanova

Horoskop - Zaljubljen sam prvi put RuznoPace Saturday, June 2, 2018 - 13:11
Goran Karan- Znam nisam te vrijedan boky87 Sunday, April 9, 2017 - 20:42
Goran Karan- Vagabundo boky87 Sunday, April 9, 2017 - 20:42
Goran Karan- Samo moru virujem boky87 Sunday, April 9, 2017 - 20:41
Goran Karan- Prozor kraj đardina boky87 Sunday, April 9, 2017 - 20:41
Goran Karan- Partenca (ay, ay, ay) boky87 Sunday, April 9, 2017 - 20:37
Goran Karan- Ostani boky87 Sunday, April 9, 2017 - 20:37
Goran Karan- Od srca do usana boky87 Sunday, April 9, 2017 - 20:36
Goran Karan- Novi dan boky87 Sunday, April 9, 2017 - 20:36
Goran Karan- Ne šalji lađe boky87 Sunday, April 9, 2017 - 20:35

Pages