Tocak R.M. - Smak - Daire - Akordi za gitaru

Intro: 2x 
E||----------------------||----------------------------------||
B||----------------------||----------------------------------||
G||----------7--5--4--2--||*----------------------------5---*||
D||----------------------||*-------2------------0-----4---4-*||
A||----------9--7--5--3--||------2----2---2---2---2-5--------||
E||----------------------||---0---------0---3----------------||

----------------------------||
----------------------------||
----------------------------||
-------2--------2--4--2--0--||
-----2----2---2-2--4--2--0--||
--0---------0---------------||

Strofa 1 :
                                    3x
||----------------------------------||
||----------------------------------||
||*----------------------------5---*||
||*-------2------------0-----4---4-*||
||------2----2---2---2---2-5--------||
||---0---------0---3----------------||

Negde iz daleka,
Cuju se daire.
Mesecevom rekom,
Dolaze cigani.

----------------|----------------------|----------------------|
----------------|----------------------|----------------------|
----------------|----------------------|------------4---4-----|
-------2--------|--7---7-----5---5-----|--4---4-----4---4-----|
-----2----2---2-|--7---7-----5---5-----|--4---4-----2---2-----|
--0---------0---|--5---5-----3---3-----|--2---2---------------|

Negde iz daleka...

Riff:
                                 2x                    
|--------------------------------||------------------------------|
|--------------------------------||------------------------------|
|*------------------------------*||------------------------------|
|*------------------------------*||------------------------------|
|-------2-------0---4h5h7~--7~---||------2-------0---4h5h7~--7~--|
|---3-5---3-2-3---2---------0~---||--3-5---3-2-3---2---------0~--|

Refren: 2X
|-------------------------|-----------------------------||
|-------------------------|-----------------------------||
|*-------------7---7---7--|--0---0---------------------*||
|*--2---2---2--7---7---7--|--2---2---------------------*||
|---2---2---2--5---5---5--|--3---3---------2-------0----||
|---0---0---0-------------|------------3-5---3-2-3---2--||

Izvire u oku sjaj,
Da li je java il' san,
Daire dajte mi vi,

|------------------------|----------------------|
|------------------------|----------------------|
|-------------7---7---7--|----------------------|
|--2---2---2--7---7---7--|--10--------9----7----|
|--2---2---2--5---5---5--|--10--------9----7----|
|--0---0---0-------------|--8---------7----5----|

Navire pesma u meni.

Intro 2:
|-----------------------|
|-----------------------|
|-----------------------|
|--2--------2--4--2--0--|
|--2--------2--4--2--0--|
|--0--------------------|
                                   2x                             
|----------------------------------||----------------------------|
|----------------------------------||----------------------------|
|*----------------------------5---*||----------------------------|
|*-------2------------0-----4---4-*||-------2--------2--4--2--0--|
|------2----2---2---2---2-5--------||-----2----2---2-2--4--2--0--|
|---0---------0---3----------------||--0---------0---------------|

Strofa 2:
                                    3x
||----------------------------------||
||----------------------------------||
||*----------------------------5---*||
||*-------2------------0-----4---4-*||
||------2----2---2---2---2-5--------||
||---0---------0---3----------------||

Fenjeri se pale,
Vatra je u ljudima.
Orosene lale,
Leze na grudima.

----------------|----------------------|----------------------|
----------------|----------------------|----------------------|
----------------|----------------------|------------4---4-----|
-------2--------|--7---7-----5---5-----|--4---4-----4---4-----|
-----2----2---2-|--7---7-----5---5-----|--4---4-----2---2-----|
--0---------0---|--5---5-----3---3-----|--2---2---------------|

Fenjeri se pale...

Riff:
                                 2x                               
|--------------------------------||------------------------------|
|--------------------------------||------------------------------|
|*------------------------------*||------------------------------|
|*------------------------------*||------------------------------|
|-------2-------0---4h5h7~--7~---||------2-------0---4h5h7~--7~--|
|---3-5---3-2-3---2---------0~---||--3-5---3-2-3---2---------0~--|

Refren: 2X
|-------------------------|-----------------------------||
|-------------------------|-----------------------------||
|*-------------7---7---7--|--0---0---------------------*||
|*--2---2---2--7---7---7--|--2---2---------------------*||
|---2---2---2--5---5---5--|--3---3---------2-------0----||
|---0---0---0-------------|------------3-5---3-2-3---2--||

Izvire u oku sjaj,
Da li je java il' san,
Daire dajte mi vi,

|------------------------|----------------------|
|------------------------|----------------------|
|-------------7---7---7--|----------------------|
|--2---2---2--7---7---7--|--10--------9----7----|
|--2---2---2--5---5---5--|--10--------9----7----|
|--0---0---0-------------|--8---------7----5----|

Navire pesma u meni.

Riff 2:
------------------------------|------------------------------|
------------------------------|------------------------------|
------------------------------|------------------------------|
------------------------------|------------------------------|
------2-------0---4h5h7-------|------2-------0---4h5h7-------|
--3-5---3-2-3---2---------0---|--3-5---3-2-3---2---------0---|

------------------------------|------------------------------|
------------------------------|------------------------------|
------------------------------|------------------------------|
------------------------------|------------------------------|
------2-------0---4h5h7-------|------2-------0---4h5h7-------|
--3-5---3-2-3---2---------0---|--3-5---3-2-3---2---------0---|
                                                                               
--------------------------|------------------------|--------------------------|
--------------------------|------------------------|--------------------------|
--------------------------|------------------------|--------------------------|
--------------------------|------------------------|--------------------------|
--------------------5--7--|------------------------|--------------------5--7--|
--3--3--5--2-3---0--------|--7--7--5--3-5~----3----|--3--3--5--2-3---0--------|

------------------------|--------------------------|------------------------|
------------------------|--------------------------|------------------------|
------------------------|--------------------------|------------------------|
------------------------|--------------------------|------------------------|
------------------------|--------------------5--7--|------------------------|
--7--7--5--7-5~----3----|--3--3--5--2-3---0--------|--7--7--5--3-5~----3----|

--------------------------|------------------------|--------------------------|
--------------------------|------------------------|--------------------------|
--------------------------|------------------------|--------------------------|
--------------------------|------------------------|--------------------------|
--------------------5--7--|------------------------|--------------------5--7--|
--3--3--5--2-3---0--------|--7--7--5--7-5~----3----|--3--3--5--2-3---0--------|
                                                                             
------------------------|--------------------------|------------------------|
------------------------|--------------------------|------------------------|
------------------------|--------------------------|------------------------|
------------------------|--------------------------|------------------------|
------------------------|--------------------5--7--|------------------------|
--7--7--5--3-5~----3----|--3--3--5--2-3---0--------|--7--7--5--7-5~----3----|

Intro 2 :
|-----------------------|
|-----------------------|
|-----------------------|
|--2--------2--4--2--0--|
|--2--------2--4--2--0--|
|--0--------------------|
                                   2x                             
|----------------------------------||----------------------------|
|----------------------------------||----------------------------|
|*----------------------------5---*||----------------------------|
|*-------2------------0-----4---4-*||-------2--------2--4--2--0--|
|------2----2---2---2---2-5--------||-----2----2---2-2--4--2--0--|
|---0---------0---3----------------||--0---------0---------------|

Strofa 3 :
                                    3x
||----------------------------------||
||----------------------------------||
||*----------------------------5---*||
||*-------2------------0-----4---4-*||
||------2----2---2---2---2-5--------||
||---0---------0---3----------------||

Negde iz daleka,
Cuju se daire.
Mesecevom rekom,
Dolaze cigani.

----------------|----------------------|----------------------|
----------------|----------------------|----------------------|
----------------|----------------------|------------4---4-----|
-------2--------|--7---7-----5---5-----|--4---4-----4---4-----|
-----2----2---2-|--7---7-----5---5-----|--4---4-----2---2-----|
--0---------0---|--5---5-----3---3-----|--2---2---------------|

Negde iz daleka...

Riff:
                                 2x                               
|--------------------------------||------------------------------|
|--------------------------------||------------------------------|
|*------------------------------*||------------------------------|
|*------------------------------*||------------------------------|
|-------2-------0---4h5h7~--7~---||------2-------0---4h5h7~--7~--|
|---3-5---3-2-3---2---------0~---||--3-5---3-2-3---2---------0~--|

Refren: 2X
|-------------------------|-----------------------------||
|-------------------------|-----------------------------||
|*-------------7---7---7--|--0---0---------------------*||
|*--2---2---2--7---7---7--|--2---2---------------------*||
|---2---2---2--5---5---5--|--3---3---------2-------0----||
|---0---0---0-------------|------------3-5---3-2-3---2--||

Izvire u oku sjaj,
Da li je java il' san,
Daire dajte mi vi,

|------------------------|----------------------|
|------------------------|----------------------|
|-------------7---7---7--|----------------------|
|--2---2---2--7---7---7--|--10--------9----7----|
|--2---2---2--5---5---5--|--10--------9----7----|
|--0---0---0-------------|--8---------7----5----|

Navire pesma u meni.

Kraj:
|-----------|-----------------------|
|-----------|-----------------------|
|--0--------|--------------2--------|
|--2--------|--2--4--2--0--2--------|
|--2--------|--2--4--2--0--0--------|
|--0--------|-----------------------|
                                                  
-----------------------------|------------------||
-----------------------------|------------------||
-----------------------------|------------------||
-----------------------------|------------------||
------2-------0--------------|------------------||
--3-5---3-2-3---2-0-0-0------|------------------||
Embedded thumbnail for Mix Sevdalinki Vol.2 Akusticna gitara
Embedded thumbnail for Mix najboljih sevdalinki - Akusticna gitara Vol.1
Embedded thumbnail for Promotivni video Lego We Do 2.0 Projekti
Embedded thumbnail for Kad Zaboravis Juli - Cover Akusticna gitara
Embedded thumbnail for Promo video - LEGO Tutorial WeDo 2.0 projekti
Embedded thumbnail for Oliver Dragojević- Nocturno fingerstyle cover by Vatren Maganić
Embedded thumbnail for Zdravko Colic - Produzi Dalje - Uvodni Solo - Lekcija Za Gitaru (Solo - 01)
Embedded thumbnail for Galija - Kotor - Glavna Melodija - Lekcija Za Gitaru (Melodije - 01)
Mirza Selimovic 2024 - Dvoboj akordionline 02/26/2024 - 23:17
Mirza Selimovic - Nisi Moja akordionline 02/26/2024 - 23:06
Mix Sevdalinki Vol.2 Akusticna gitara akordionline 02/12/2024 - 09:02
Serif Konjevic - Jedna noc jedan dan - Akordi akordionline 02/09/2024 - 13:14
Serif Konjevic - Pobjednik - Akordi akordionline 02/09/2024 - 13:07
Mix najboljih sevdalinki - Akusticna gitara Vol.1 akordionline 02/08/2024 - 09:09
Promotivni video Lego We Do 2.0 Projekti akordionline 02/06/2024 - 19:04
Adil Maksutivic 2024 - Samo ja znam kako sam akordionline 02/05/2024 - 19:02
Kad Zaboravis Juli - Cover Akusticna gitara akordionline 02/05/2024 - 11:26
Adi Sose - Tony Cetinski - Sve ili Nista akordionline 01/30/2024 - 23:29
Sasa Kovacevic 2024 - Nocna ikona Akordi akordionline 01/29/2024 - 18:08
Promo video - LEGO Tutorial WeDo 2.0 projekti akordionline 01/29/2024 - 11:21
Ceca - Za kraj Film Nedelja akordionline 01/16/2024 - 20:50
Marija Serifovic - Dolazi Ljubav 2023 akordionline 12/27/2023 - 15:41
Zoster - Covjek zvani cinjenica akordionline 12/23/2023 - 11:27
Zoster - Na kamenu akordionline 12/23/2023 - 10:42
Zoster - Kuda idu svi ti ljudi akordionline 12/23/2023 - 10:41
Zoster - Ko je jamio jamio akordionline 12/23/2023 - 10:40
Zoster - Budi svoj akordionline 12/23/2023 - 10:39
Zoster - Bezbolnim palicama akordionline 12/23/2023 - 10:37
Zoster - Asta Manjana Liberta akordionline 12/23/2023 - 10:15
Aleksandra Prijovic - Sve po starom akordionline 12/18/2023 - 11:43
Aleksandra Prijovic - Za nas kasno je akordionline 12/18/2023 - 11:42
Aleksandra Prijovic i Aca Pejovic - Litar vina litar krvi akordionline 12/18/2023 - 11:41
Aleksandra Prijovic - Senke akordionline 12/18/2023 - 11:30
Aleksandra Prijovic - Klizav pod akordionline 12/18/2023 - 11:29
Aleksandra Prijovic - Neponovljiv akordionline 12/18/2023 - 11:28
Aleksandra Prijovic - Uspomene akordionline 12/18/2023 - 11:27
Aleksandra Prijovic i Lexington - Dodji sebi akordionline 12/18/2023 - 11:27
Aleksandra Prijovic - Sabotiram akordionline 12/18/2023 - 11:25