Zoster - Budi svoj

Zoster - Budi svoj Akordi
    Am
 
e|----------------------------|
B|-----1-1----------1-1-------|
G|-----2-2----------2-2-------|
D|-----2-2----------2-2-------|
A|---0---------3~--0----------|
E|---------3-5----------------|
 
 
 Am         Am
Treba vako, treba nako
Am         Am
Treba ovo, treba ono
Am          Am
Stezi remen, stedi metke
Am          Am
Postuj samo izuzetke

 
     C     G
Budi svoj kad jesi gdje jesi
      D        Am
A kad nisi, i nemoj
     C     G
Budi svoj kad jesi gdje jesi
      D        Am
A kad nisi, i nemoj

 
e|---------------------------------------------------------------------------|
B|------------8--------------------------------------------------------------|
G|---9~----7-9---9------5----------------------------------------------------|
D|-----------------5-7----7~-------------------------------------------------|
A|---------------------------------------------------------------------------|
E|---------------------------------------------------------------------------|
 
Am
Kad si s vukovima
                  Am
Moras zavijati ko vuk
Am
Kad si s cukovima
                Am
Moras cukati ko cuk
Am
Ne mijesaj se s mekinjama
      Am              Am
Da te krmad ne pozdere
        Am
Ne budi med
        Am
Da te svijet ne polize

 
      C    G
Budi svoj kad jesi gdje jesi
      D        Am
A kad nisi, i nemoj
      C    G
Budi svoj kad jesi gdje jesi
      D        Am
A kad nisi, i nemoj

 
e|-------------15--------15---------17-17-15-13-12--10-8\7--12-17----10/12--15\-10-8/10-8/7p5----20-19-17~---|
B|--15-17~--15----12--15----13-12~---------------------------------------------------------------------------|
G|-----------------------------------------------------------------------------------------------------------|
D|-----------------------------------------------------------------------------------------------------------|
A|-----------------------------------------------------------------------------------------------------------|
E|-----------------------------------------------------------------------------------------------------------|

 
Am                  Am
Budi dobar u dobru, zao u zlu
Am             Am
Javi na javi, sanjaj u snu
Am             Am
Mokri u mokrom, na suhom suh
Am             Am
U pameti bistar, u mutnom glup

      C        G
Budi svoj kad jesi gdje jesi
       D       Am
A kad nisi, i nemoj
      C        G
Budi svoj kad jesi gdje jesi
       D       Am
A kad nisi, i nemoj
Embedded thumbnail for Mix Sevdalinki Vol.2 Akusticna gitara
Embedded thumbnail for Mix najboljih sevdalinki - Akusticna gitara Vol.1
Embedded thumbnail for Promotivni video Lego We Do 2.0 Projekti
Embedded thumbnail for Kad Zaboravis Juli - Cover Akusticna gitara
Embedded thumbnail for Promo video - LEGO Tutorial WeDo 2.0 projekti
Embedded thumbnail for Oliver Dragojević- Nocturno fingerstyle cover by Vatren Maganić
Embedded thumbnail for Zdravko Colic - Produzi Dalje - Uvodni Solo - Lekcija Za Gitaru (Solo - 01)
Embedded thumbnail for Galija - Kotor - Glavna Melodija - Lekcija Za Gitaru (Melodije - 01)
Mirza Selimovic 2024 - Dvoboj akordionline 02/26/2024 - 23:17
Mirza Selimovic - Nisi Moja akordionline 02/26/2024 - 23:06
Mix Sevdalinki Vol.2 Akusticna gitara akordionline 02/12/2024 - 09:02
Serif Konjevic - Jedna noc jedan dan - Akordi akordionline 02/09/2024 - 13:14
Serif Konjevic - Pobjednik - Akordi akordionline 02/09/2024 - 13:07
Mix najboljih sevdalinki - Akusticna gitara Vol.1 akordionline 02/08/2024 - 09:09
Promotivni video Lego We Do 2.0 Projekti akordionline 02/06/2024 - 19:04
Adil Maksutivic 2024 - Samo ja znam kako sam akordionline 02/05/2024 - 19:02
Kad Zaboravis Juli - Cover Akusticna gitara akordionline 02/05/2024 - 11:26
Adi Sose - Tony Cetinski - Sve ili Nista akordionline 01/30/2024 - 23:29
Sasa Kovacevic 2024 - Nocna ikona Akordi akordionline 01/29/2024 - 18:08
Promo video - LEGO Tutorial WeDo 2.0 projekti akordionline 01/29/2024 - 11:21
Ceca - Za kraj Film Nedelja akordionline 01/16/2024 - 20:50
Marija Serifovic - Dolazi Ljubav 2023 akordionline 12/27/2023 - 15:41
Zoster - Covjek zvani cinjenica akordionline 12/23/2023 - 11:27
Zoster - Na kamenu akordionline 12/23/2023 - 10:42
Zoster - Kuda idu svi ti ljudi akordionline 12/23/2023 - 10:41
Zoster - Ko je jamio jamio akordionline 12/23/2023 - 10:40
Zoster - Budi svoj akordionline 12/23/2023 - 10:39
Zoster - Bezbolnim palicama akordionline 12/23/2023 - 10:37
Zoster - Asta Manjana Liberta akordionline 12/23/2023 - 10:15
Aleksandra Prijovic - Sve po starom akordionline 12/18/2023 - 11:43
Aleksandra Prijovic - Za nas kasno je akordionline 12/18/2023 - 11:42
Aleksandra Prijovic i Aca Pejovic - Litar vina litar krvi akordionline 12/18/2023 - 11:41
Aleksandra Prijovic - Senke akordionline 12/18/2023 - 11:30
Aleksandra Prijovic - Klizav pod akordionline 12/18/2023 - 11:29
Aleksandra Prijovic - Neponovljiv akordionline 12/18/2023 - 11:28
Aleksandra Prijovic - Uspomene akordionline 12/18/2023 - 11:27
Aleksandra Prijovic i Lexington - Dodji sebi akordionline 12/18/2023 - 11:27
Aleksandra Prijovic - Sabotiram akordionline 12/18/2023 - 11:25